De 6 viktigste tonene i rockehistorien

Vil du bli den neste Slash, Angus Young eller Kirk Hammett? Spill bluesskalaen! Felles for disse og de aller fleste andre gitarhelter er at de begynte med nettopp denne skalaen. I veldig mange tilfeller er det fortsatt de samme 6 tonene det går i.

Publisert: 05.04.16. Skrevet av Anders Nærø. Kategori: Gitarist.

Først fem

Den første skalaen man lærer når man skal spille solo på gitar er gjerne A-moll pentaton skalaen (Fra 5.bånd på mørk E-streng).

  A-MOLL PENTATON SKALA

E|-----------------------------------------5---8--|
H|---------------------------------5---8----------|
G|------------------------5---7-------------------|
D|-----------------5---7--------------------------|
A|---------5---7----------------------------------|
E|--5---8-----------------------------------------|

Denne skalaen er ikke så altfor lett å få noe tøft ut av. Den er fin å starte med fordi den er oversiktlig, med bare to toner på hver streng, og den låter riktig i mange tilfeller. Legg merke til at det er de samme fem tonene som går igjen i denne skalaen, tonene kommer bare i lysere utgaver når en går over på de lysere strengene.

En veldig spennende rockesolo er det imidlertid ikke lett å få til med denne skalaen, i hvert fall om man er ganske fersk med det å improvisere. Det er først når man begynner å finne ut av hvilke av disse toner som kan bendes at det blir fart på sakene. Med bending blir også den tonen som skiller bluesskalaen fra pentatonskalaen tilgjengelig, nemlig blåtonen.

Seks toner

Blåtonen ligger mellom tredje og fjerde tone i moll pentatonskalaen, dette tilsvarer tone fire og ti i bluesskalaen. Om du ikke har spilt den altfor mye, begynn med å leke med 3. og 4.tone som er de samme tonene som 9. og 10. Prøv å lage noen enkle melodier som har blåtonen i seg. Det er bedre å lære seg å spille en solo på denne måten, enn bare å øve hele skalaen opp og ned. Målet med det hele er jo at du skal kunne spille noe tøft du hører for deg, da er det lettest å begynne med noen få toner.

  BLUESSKALAEN:
  
E|--------------------------------------5--8--|
H|--------------------------------5--8--------|
G|-----------------------5--7--8--------------|
D|-----------------5--7-----------------------|
A|--------5--6--7-----------------------------|
E|--5--8--------------------------------------|
            blå               blå

Om du spiller solo på el-gitar er det et must å kunne bende seg fram til blåtonen. Det gjør du ved å bende 7.bånd på G-strengen en halvtone opp, det vil si så den høres ut som 8.bånd uten bend. Tilsvarende på 5.bånd på A-strengen. En fin øvelse og et lett og fett lick med blåtonen er:

E|-------------------------------------|
H|-------------5--5--------5--5--------|
G|---------b7---------b7---------------|
D|-------------------------------------|
A|-------------------------------------|
E|-------------------------------------|

Det finnes omtrent like mange blueslicks som det finnes gitarister. Og selv om det bare er seks toner vi snakker om, er mulighetene uendelige i forhold til rytmikk, tempo og frasering. Begynn å lage dine egne blueslick, og bygg opp et repertoar av disse.

Lytteeksempler

Hør for eksempel på soloen til Angus Young på Highway to Hell. Her er det kun TO toner som ikke kommer fra bluesskalaen notert over. Det samme gjelder soloen til Jimmy Page på Stairway to Heaven, den er med få unntak bare bluesskala over hele linja. Andre eksempler er lett å finne hos folk som Jimi Hendrix, Eric Clapton, James Hetfield, David Gilmour, Randy Rhoads, Stevie Ray Vaughan osv. osv.

Highway to hell med AC/DC. Soloen starter fra 2.45:

Videoleksjon: Highway to hell-solo

Hvordan øve?

En klassiker er å sitte og jamme på en blues sammen med en kompis. Dere bytter på å spille blueskompet og på å spille solo. Om du ikke har en blueskompis for hånden kan du for eksempel gå inn på jamsidene til onlinegitar.no, finne riktig skala og sette i gang!




 

 

Flere artikler: