Symboler i tabulatur

Symboler i tabulatur


Mange gitarister er usikre på hva de forskjellige symbolene innen tabulatur betyr. Kanskje man har funnet en låt på internett i tabulaturform men når man begynner å øve på den finner man mange ulike tegn som man ikke helt skjønner hva betyr. I denne artikkelen skal vi derfor gå gjennom de 6 mest brukte tegnene som man ofte har behov for å kunne.

Publisert: 30.05.11. Skrevet av Jon Rune Lorentzen. Kategori: Gitarist.

 

Hammer-on og pull-off

Hammer-on og pull-off er kanskje de to mest brukte tegnene som er å finne i et tabulatur. En hammer-on symboliseres ved en h mellom de aktuelle tonene.

Eksempel:

|-------------5-h-7---------------|
|---------------------------------|
|---------------------------------|
|---------------------------------|
|---------------------------------|
|---------------------------------|

Hammer-on kan oversettes med å 'hamre på', og det er nettopp det man gjør. Dersom vi tar utgangspunkt i eksempelet over skal vi her spille tonen på 5. bånd (f.eks. med pekefinger), og deretter hamre ringefinger (ev. en annen finger) så hardt ned på 7. bånd at man ikke trenger å slå an tonen i høyrehånd

Pull-off er derimot det motsatte av hammer-on, og kan oversettes med å dra/nappe av. Pull-off symboliseres ved en p mellom de aktuelle tonene

Eksempel:

|-------------5-p-7---------------|
|---------------------------------|
|---------------------------------|
|---------------------------------|
|---------------------------------|
|---------------------------------|

Pull-off utføres ved at man (i dette tilfellet) plasseres f.eks. ringefinger på 7.bånd samtidig som man også legger pekefinger klar på 5.bånd. Deretter spiller man tonen på 7.bånd for så å dra langefingeren av sidelengs slik at det er den som produserer tonen på 5.bånd.

Det kan også være greit å vite at symbolene h og p for hammer-on og pull-off i mange tilfeller er erstattet med følgende symbol:

Slide

Slide er også en teknikk som ofte brukes på gitar. En slide utføres i venstre hånd og kan oversettes med å skli, man sklir altså fra ett bånd til et annet samtidig som man presser strengen inn mot gripebrettet.

Eksempel 1:

|-------------5-/-7---------------|
|---------------------------------|
|---------------------------------|
|---------------------------------|
|---------------------------------|
|---------------------------------|

Eksempel 2:

|-------------7-\-5---------------|
|---------------------------------|
|---------------------------------|
|---------------------------------|
|---------------------------------|
|---------------------------------|

I eksempel 1 ser vi at en slide oppover halsen symboliseres ved en /

I eksempel 2 ser vi at en slide nedover halsen symboliseres ved en \

En slide kan også i noen tilfeller være symbolisert ved en s mellom de aktuelle tonene

Bending

Å bende på en gitar er svært vanlig innen spesielt blues og rock. Når man spiller slik musikk vil man derfor ofte støte borti en b.

Eksempel:

|-------------5b------------------|
|---------------------------------|
|---------------------------------|
|---------------------------------|
|---------------------------------|
|---------------------------------|

I dette tilfellet betyr det at man skal bøye/dra strengen i vertikal retning på gitarhalsen. Symbolet b kan også være byttet ut med en pil:

Står det 'full' som i første bilde skal man bende så mye at tonen klinger likt som om man skulle spilt tonen 2 bånd over tonen man bender. Står det derimot ½ skal man bende så mye at det klinger likt som tonen et bånd over tonen man bender.

Vibrato

Vibrato bruker man for å fremkalle mer liv i en aktuell tone. Ved å bruke vibrato får man tonen til å begynne å dirre/skjelve regelmessig. På en gitar fremkaller man en vibrato ved å svinge høyre hånd parallelt med strengene mens tonen klinger. Man kan eventuelt bende strengen forsiktig fram og tilbake.

Vibrato noteres ofte ved følgende symbol: ~

|------------5~~~~----------------|
|---------------------------------|
|---------------------------------|
|---------------------------------|
|---------------------------------|
|---------------------------------|

eller: ^

|------------5^^^^^^--------------|
|---------------------------------|
|---------------------------------|
|---------------------------------|
|---------------------------------|
|---------------------------------|

Palm mute

Det siste symbolet vi skal skrive kort om er palm mute. Spesielt innen rock og metal sjangeren bruker man ofte denne teknikken. Det betyr å dempe tonene man skal spille, og er nyttig når man bruker mye distortion/fuzz. På gitaren gjøres dette ved å legge håndbaken i høyre hånd svakt over de strengene som skal spilles. Unngå å dempe for mye, for enklest å unngå det er det lurt å legge håndbaken så langt bak som mulig.

Palm mute noteres som oftest ved å skrive P.M. over det aktuelle området:

Eksempel:

     P.M.
|------------------------|
|------------------------|
|------------------------|
|----5--5--5--5----------|
|----5--5--5--5----------|
|----3--3--3--3----------|

Dersom man derimot demper strengene ved å legge venstrehånd svakt over gripebrettet for å få en rytmisk effekt noteres dette ved en x over de aktuelle strengene som skal dempes.

Eksempel:

|------------------------|
|------------------------|
|------------------------|
|----x--x--x-------------|
|----x--x--x-------------|
|----x--x--x-------------|



 

 

Flere artikler:




Nyeste artikler:





Videoleksjoner