Topp 10 norske gitarriff

Topp 10 norske gitarriff


Onlinegitar.no har finkjemmet den norske rockehistoriens mange låter og børstet støvet av det vi mener er de 10 beste gitarriffene komponert og framført av norske band og gitarister. Her er listen som også inkluderer tabulatur og kommentarer til hvert riff.

Publisert: 21.03.11 Kategori: Lister og kåringer.

 

Hva er et riff?

For å legge det riktige grunnlaget for kåringen, her er Wikipedias definisjon av et riff: "Riff er en instrumental melodifrase som gjerne gjentas flere ganger i en sang".

Vi kårer altså ikke beste gitarlåt, da ville utvilsomt låter som f.eks. Marius Müllers Den du veit kommet med. Her kårer vi kun beste gitarriff, og da innnen sjangeren rock. Verdens mest kjente rockeriff gjennom tidene er utvilsomt Deep Purples Smoke on the water. Onlinegitar.no har kåret de 10 beste norske gitar-rockeriffene gjennom tidene.

01: Splitter Pine - DumDum Boys

e|-----------------------------------|-----------------------------------|
H|-----------------------------------|-----------------------------------|
G|------------------------------4----|------------------------------4----|
D|-----4-3--0-2--0--------------4----|-----4-3--0-2--0--------------4----|
A|--2--------------2--0-2--0-2-------|--2--------------2--0-2--0-2-------|
E|-----------------------------------|-----------------------------------|


D D D D
e|-------------------------------x---|--x-------x------x---------|
H|-------------------------------3---|--3-------3------3---------|
G|-------------------------------2---|--2-------2------2---------|
D|---0--4-3--0-2--0--------------0---|--0-------0------0---------|
A|------------------2--0-2--0-2------|------b4-----b4-----b4-----|
E|-----------------------------------|---------------------------|

Kommentar: I hard konkurranse med 10.000 Lovers ble det til slutt Splitter Pine som gikk av med seieren. Låta kom som et friskt pust i 1989 og med et åpningsriff som tok pusten av de fleste. Riffet er ikke av de mest avanserte, men det trengs teknikk for å få det opp i riktig tempo. Gitarist Kjartan Kristiansen i DumDum Boys pådro seg senebetennelse fordi han spilte for mye på dette riffet. Derfor ble det Torstein Flakne som spilte riffet på albumet.

Splitter Pine videoleksjon [medlem]


02: 10.000 Lovers (In One) - TNT

e|-----------------------|-----------------------------|
H|-----------------------|-----------------------------|
G|-----6------7-7--------|-6------6-7------------------|
D|-----7------7-7--------|-7------7-7------------------|
A|-----------------------|-------------------5---------|
E|-0------0-0------0--0-0|----0-0--------5-7---7-6-5-3-|


e|-----------------------|------------------------||
H|-----------------------|------------------------||
G|-----6------7-7------2-|------------------------||
D|-----7------7-7------2-|------------------------||
A|-----------------7\--0-|------------------------||
E|-0------0-0------------|-----------3-2---5-3----||

Kommentar: I 1987, 2 år før Splitter Pine, gjorde TNT stor suksess i USA og deres største hit 10.000 Lovers gjorde seg spesielt bemerket på grunn av det drivende gode intro-riffet. En av hemmelighetene er kanskje at strengene er stemt ned en halv tone og dermed gir en litt annen sound enn vanlig. Et overkommelig riff å spille der den største utfordringen nok er å få til bra demping av strengene.


03: Prince Of The Rodeo - Turbonegro

e|--------------------------------------------|
H|------------5-5-------7-7-5h7---------------|
G|----------7-5-5-----7-7-7-5h7---------------|
D|------5h7-------5h7-------------------------|
A|--0-0---------------------------------------|
E|--------------------------------------------|

Kommentar: Et raskt og drivende riff hentet fra albumet Apocalypse Dudes som kom ut i 1998. Albumet var debuten for gitarist Knut Schreiner(Euroboy). Riffet er ganske kort og gjentas mange ganger. Det får ekstra tyngde og gjennombruddskraft når gitar 2 legger sine powerchords i bakgrunnen. Et vanskelig riff å spille på grunn av tempoet og rytmikken.


04: Intuition - TNT

e|--------------------------------------------------------------------------|
H|--------------------------------------------------------------------------|
G|-12-------12---12-11----12---11----12---11----12-----12---12-11---12---11-|
D|-12-------12---12-12----12---12----12---12----12-----12---12-12---12---12-|
A|----10-10------------10---------10---------10-----------------------------|
E|-------------------------------------------------0-0------------0---------|


e|--------------------------------------------------------------------------|
H|-------------------------------------------------------7---9--------------|
G|---12---11----12-----12---12-11---12---11---12---11--------------5--5-----|
D|---12---12----12-----12---12-12---12---12---12---12----7---9-----5--5-----|
A|-------------------------------------------------------5---7-----3--3-----|
E|-0---------8-----8-8------------8---------8---------8---------------------|

Kommentar: Ronnie Le Tekrø og TNT innehar også 4.plassen med låta Intuition som er hentet fra albumet med samme navn i 1989. Tekrø var og er en mester i å lage fengende riff som er iørefallende fra første stund. Dette riffet bygger mer på en akkordprogresjon i forhold til 10.000 Lovers. Egentlig er det kun ett powerchord-grep, G5, som ligger til grunn hele veien, men bassen endrer seg og danner så grepene G - Em - C. Noen vanskelige strekk innimellom, men et greit riff å lære seg.


05: Hard To Be A Rock'n Roller - Wig Wam

e|----------------------------------------------------|
H|----------------------------------------------------|
G|----------------------------------------------------|
D|----------------------------------------------------|
A|----------------------------------------------------|
E|--2--0--1--2--2-2-2--1--0--2--0--1--2--2-2-2-1--0---|


e|----------------------------------------------------|
H|----------------------------------------------------|
G|-------------------2---2----------------------------|
D|---------------2---0---0----------------------------|
A|---------------0----------4--0--2-------------------|
E|--2--0--1--2----------------------------------------|

Kommentar: Glam metal-bandet Wig Wam med Trond Holter (Teeny) i spissen innehar 5.plassen med dette sugende riffet. Etter Grand Prix-suksessen med låta In My Dreams fulgte de opp med hiten Hard To Be A Rock'n Roller. Mesteparten av riffet består av E, F og F# tonene på den dypeste strengen, etterfulgt av A5 og D5 powerchords. Det enkle er ofte det beste, men det kan være vanskelig å få det opp i tempoet samtidig som man beholder det rytmiske aspektet og den viktige dempingen.


06: Kokken Tor - DeLillos

e|----------------------------------------|-------------------0-----|
H|----------------------------------------|-------------------0-----|
G|*-------------------2-------------------|-------------------2----*|
D|*-----4--2h4--2-----------4--2h4--2-----|-----4--2h4--2----------*|
A|-----------------4-------------------4--|----------------4--------|
E|---2------------------------------------|--2----------------------|

Kommentar: Hentet fra albumet Neste sommer som kom ut i 1993. Riffet er, i likhet med låta, tungt og slagkraftig. Her er ikke tempoet det utfordende men mer bruken av hammer-on og vibrato for å få liv i fraseringen.

Kokken Tor videoleksjon [medlem]


07: Caught Between The Tigers - TNT

e|--------------------------------------------|
H|--------------------------------------------|
G|--------------------------------------------|
D|--------------------------------------------|
A|--5--5--7--0--4--5--0--2--3--0--1--2--------|
E|--------------------------------------3--0--|


e|--------------------|---------------------|
H|--------------------|---------------------|
G|--------------------|--0-h-2-h-4-p-2-p-0--|
D|--------------------|---------------------|
A|--0--5--7--0--4--5--|---------------------|
E|--------------------|---------------------|


e|---------------------|------------------------|
H|---------------------|------------------------|
G|---------------------|------------------------|
D|--0-h-2-h-4-p-2-p-0--|------------------------|
A|---------------------|--0-h-2-h-4-p-2-p-0-----|
E|---------------------|---------------------3--|

Kommentar: Norges riff-konge Le Tekrø i TNT kaprer også 7.plassen på denne listen. Caught Between The Tigers er hentet fra Intuition-albumet som kom i 1989. Riffet er krevende å spille, spesielt de nedadgående løpende som skal spilles raskt og kontrollert. Med bruk av hammer-on og pull-offs blir det litt greiere å få til men likevel krevende å få det jevnt og behersket.

Caught Between The Tigers videoleksjon [medlem]


08: Time For The Dying - Svölk

e|-------------------------------------------|
H|-------------------------------------------|
G|-------------------------------------------|
D|---------------5-------7b8b7-5-7-5---------|
A|----------5-7----7-----------------7-5-----|
E|--0--5-7-----------------------------------|


e|-------------------------------------------|
H|-------------------------------------------|
G|-----------------------------------7-9-----|
D|---------------5-------7b8b7-5-7/9---------|
A|----------5-7----7-------------------------|
E|--0--5-7-----------------------------------|

Kommentar: Trysil-bandet Svölk innehar 8.plassen med Time For The Dying hentet fra EPen Beast Unleashed fra 2005. En herlig lang intro gir rammen for dette drivende riffet. Ganske enkelt å spille, bygd på pentaton-skalaen med litt bendinger og slides. Riffet repeteres flere ganger men bassen endrer seg og skaper variasjon.

Time For The Dying videoleksjon [medlem]


09: Cowgirl - Sons of Angels

e|--------|-----------------------------|----------------------------|
H|--------|-----------------------------|----------------------------|
G|--------|-------3---------------------|--------3-------------------|
D|--------|-3-4-5---5-3-----------------|--3-4-5---5-3---------------|
A|------5-|-------------5-3-----------5-|--------------5-3-----------|
E|--------|-----------------6----3------|------------------6--6--3---|

Kommentar: 1980-talls bandet Sons Of Angels fikk en hit med denne låta og dro til USA og skrev platekontrakt med Atlantic Records i 1989. Bandet stilte i samme metal-kategori som TNT og dette riffet er et eksempel på det. Et helt overkommelig riff å spille så lenge man behersker pentaton-skala og demping.


10: Love Cries- Stage Dolls

e|-------------------------------|----------------------------------|
H|--9-----10-----9-----10-----9--|-----9-----10-----9-----10-----9--|
G|--9------9-----9------9-----9--|-----9------9-----9------9-----9--|
D|----0-0----0-0---0-0-----------|----------------------------------|
A|-------------------------------|-9-9---9-9----9-9---9-9-----------|
E|-------------------------------|----------------------------------|


e|----------------------------------|---------------------------------------|
H|-----9-----10-----9-----10-----9--|-----9-----10---------10-9-------------|
G|-----9------9-----9------9-----9--|-----9------9--------------9------8----|
D|-0-0---0-0----0-0-----------------|-----------------------------9-11---12-|
A|--------------------7-7-----------|-9-9---9-9----9-9-9--------------------|
E|----------------------------------|---------------------------------------|

Kommentar: Denne låta er hentet fra et album fra 1988 med det kreative navnet Stage Dolls. Riffet er i samme gate som Intuition med powerchords og en bass som endrer seg hele tiden. Torstein Flakne er gitarist og den som har laget dette iørefallende riffet. Fortjent plass på vår Topp 10 liste.




 

 

Flere artikler:




Nyeste artikler:





Videoleksjoner